Netphoria Message Board


Go Back   Netphoria Message Board > Smashing Pumpkins Boards > Smashing Pumpkins/Billy Corgan Discussion
Register Netphoria's Amazon.com Link Members List Photo Album Mark Forums Read

Reply
 
Thread Tools Display Modes
Old 11-06-2017, 11:26 PM   #1
Ram27
Minion of Satan
 
Ram27's Avatar
 
Location: mayfair mistress of the satellites
Posts: 5,536
Default How do you play Iha's lead on Soma after 'so let the sadness come again'

all the tabs i've seen just lump in it with the solo

i'm nowhere near good enough at guitar to actually figure out what part is which

 
Ram27 is offline
Reply With Quote
Old 11-06-2017, 11:33 PM   #2
FoolofaTook
Braindead
 
FoolofaTook's Avatar
 
Location: The Walla Wallaean Vale
Posts: 16,980
Default

You play it with feeling Ram. With feeling.

 
FoolofaTook is offline
Reply With Quote
Old 11-07-2017, 06:14 AM   #3
teh b0lly!!1
Socialphobic
 
teh b0lly!!1's Avatar
 
Location: Your soul
Posts: 14,442
Default

i believe the secret code is


---------------
5-6-------------~~~~~~--------------------
-532-----------------------------------5~~~

 
teh b0lly!!1 is offline
Reply With Quote
Old 11-07-2017, 06:18 AM   #4
Cool As Ice Cream
Immortal
 
Cool As Ice Cream's Avatar
 
Location: František! How's the foot of your turtle?
Posts: 29,224
Default

and then 8====D - - - -

 
Cool As Ice Cream is offline
Reply With Quote
Old 11-07-2017, 07:09 PM   #5
Ram27
Minion of Satan
 
Ram27's Avatar
 
Location: mayfair mistress of the satellites
Posts: 5,536
Default

it's for a school project

 
Ram27 is offline
Reply With Quote
Old 11-07-2017, 07:17 PM   #6
cork_soaker
full of longing
 
cork_soaker's Avatar
 
Posts: 10,060
Default



 
cork_soaker is offline
Reply With Quote
Old 11-07-2017, 07:37 PM   #7
FoolofaTook
Braindead
 
FoolofaTook's Avatar
 
Location: The Walla Wallaean Vale
Posts: 16,980
Red face

Quote:
Originally Posted by Cool As Ice Cream View Post
and then 8====D - - - -
Hawt

 
FoolofaTook is offline
Reply With Quote
Old 11-07-2017, 07:43 PM   #8
Ram27
Minion of Satan
 
Ram27's Avatar
 
Location: mayfair mistress of the satellites
Posts: 5,536
Default

holy shit thank you cork. that is perfect

 
Ram27 is offline
Reply With Quote
Old 11-07-2017, 08:58 PM   #9
Funbags
Apocalyptic Poster
 
Funbags's Avatar
 
Posts: 1,168
Red face

That's from the official tab book right? I always thought that fingering made no sense in real life.

I remember playing it like this. It actually sounds closer to the real thing imho.

Code:
e---15----------------------------------------------|----------------------------|
b--------12~---13----------15~----------------------|----------------------------|
g--------------------12~---------12-----------------|----------------------------|
d--------------------------------------14-----------|---/14--12\10^12^10\9/10~---|
a-------------------------------------------12\10---|----------------------------|
e---------------------------------------------------|----------------------------|
REFUTING THE TAB BOOK YEAH BITCHES

 
Funbags is online now
Reply With Quote
Old 11-08-2017, 03:09 AM   #10
he/she/it
Pledge
 
he/she/it's Avatar
 
Posts: 240
Default

Quote:
Originally Posted by Funbags View Post
That's from the official tab book right? I always thought that fingering made no sense in real life.

I remember playing it like this. It actually sounds closer to the real thing imho.

Code:
e---15----------------------------------------------|----------------------------|
b--------12~---13----------15~----------------------|----------------------------|
g--------------------12~---------12-----------------|----------------------------|
d--------------------------------------14-----------|---/14--12\10^12^10\9/10~---|
a-------------------------------------------12\10---|----------------------------|
e---------------------------------------------------|----------------------------|
REFUTING THE TAB BOOK YEAH BITCHES
I bet you could make it out from a live video which fingering he uses.

 
he/she/it is offline
Reply With Quote
Old 11-08-2017, 03:36 AM   #11
Cool As Ice Cream
Immortal
 
Cool As Ice Cream's Avatar
 
Location: František! How's the foot of your turtle?
Posts: 29,224
Default

Quote:
Originally Posted by Ram27 View Post
holy shit thank you cork. that is perfect
false but fun to pretend

 
Cool As Ice Cream is offline
Reply With Quote
Old 11-08-2017, 12:41 PM   #12
srt4b
Ownz
 
srt4b's Avatar
 
Posts: 647
Default

post a vid of you shredding the solo friend

 
srt4b is offline
Reply With Quote
Reply


Thread Tools
Display Modes

Posting Rules
You may not post new threads
You may not post replies
You may not post attachments
You may not edit your posts

vB code is On
Smilies are On
[IMG] code is On
HTML code is On
Google


Forum Jump

Similar Threads
Thread Thread Starter Forum Replies Last Post
netphorian haikus Dogfighter28 General Chat Archive 93 08-04-2013 10:53 AM
Are Smashing Pumpkins lyrics (generally) "emo"? The Trashbirds Pumpkins Archive 374 09-29-2008 03:50 PM
my list of songs... ChrisChiasson Pumpkins Archive 1 07-27-2007 11:38 AM


All times are GMT -5. The time now is 04:06 PM.



Powered by vBulletin® Version 3.6.8
Copyright ©2000 - 2017, Jelsoft Enterprises Ltd.

Smashing Pumpkins, Alternative Music
& General Discussion Message Board and Forums
www.netphoria.org - Copyright © 1998-2014