View Single Post
Old 10-09-2017, 07:48 AM   #1
teh b0lly!!1
Braindead
 
teh b0lly!!1's Avatar
 
Location: WILD BOY
Posts: 15,400
Default itt post mumbly fat kid guitar tabs

Title: The Age of Innocence
The Smashing Pumpkins
as performed 10-30-99 @ BSB

tabbed by Arthur Lau
gish@home.com
icq uin: 3740288

Ok, these are just the chords, figure out the rhythm yourself please

*here's the main verse chords
"all descends, in the backroads, to ride these streets unafraid..."

E||--0----0----0----||
B||--3----3----3----||
G||--0----2----0----||
D||--2----2----2----||
A||--3----0----2----||
E||------------0----||

*here's the chorus/bridge chords
"no more the lie upon you, no more the things in faith"
(2x)

E||-------0----0----0----||
B||--6----3----3----3----||
G||--0----0----0----2----||
D||--5----2----2----0----||
A||--6----3----2---------||
E||------------0---------||

*now its back to the main verse chords
"desolation yes, hesitation no...."

*then the next few verses go like this
"and for the moment we are free, to seek the final release..."
repeated and alternated a few times, rhythm is different here,
listen to the song

E||--0----0----0----0-----0----0----0----||
B||--0----0----0----3-----3----3----3----||
G||--0----2----0----0-----2----0----2----||
D||--2----2----2----2-----2----2----0----||
A||--3----0----2----3-----0----2---------||
E||------------0---------------0---------||

*then the next part is a slight variation
"desolation yes, hesitation no..."
and it ends with this chord progression

E||--0----0----0----0----0----0----0----0----||
B||--3----3----3----3----0----0----0----3----||
G||--0----0----0----0----0----0----0----0----||
D||--2----2----0----2----2----2----0----2----||
A||--3----2----2----3----3----2----2----3----||
E||-------0----3--------------0----3---------||

 
teh b0lly!!1 is online now
Reply With Quote