View Full Version : United States tab


thurston
06-02-2007, 11:04 PM
so am i on to something or terribly far off?

Eb------------------------------
Bb------------------------------
Gb-0-0-0-0-0----0-0-0-0-0-
Db-0-0-0-0-0----0-0-0-0-0-
Ab-0-0-0-0-0----0-0-0-0-0-
Db-0-0-0-0-0----0-0-0-0-0-



Eb------------------------------
Bb------------------------------
Gb------------------------------
Db-7-7-7-7-7----7-7-7-7-7-
Ab-5-5-5-5-5----4-4-4-4-4-
Db-x-x-x-x-x------x-x-x-x-x-



Eb------------------------------------
Bb-------------------------------------
Gb-0-0-0-0---------------------------
Db-0-0-0-0---------------------------
Ab-0-0-0-0-9b-12b--4-8b-11b---
Db-0-0-0-0---------------------------


Eb-----------------------------
Bb------------------------------
Gb-----------------------------
Db------------------------------
Ab-5-9b-12b----4--8b-11b--
Db--------------------------------

Thomas
06-02-2007, 11:26 PM
Eb------------------------------------
Bb-------------------------------------
Gb-0-0-0-0---------------------------
Db-0-0-0-0---------------------------
Ab-0-0-0-0-9b-12b--4-8b-11b---
Db-0-0-0-0---------------------------

Eb-----------------------------
Bb------------------------------
Gb-----------------------------
Db------------------------------
Ab-5-9b-12b----4--8b-11b--
Db--------------------------------

Sounds good to me...

Fattening Ass
06-03-2007, 01:26 AM
SHUT UP

tcm
06-03-2007, 02:34 AM
Eb------------------------------
Bb------------------------------
Gb-0-0-0-0-0----0-0-0-0-0-
Db-0-0-0-0-0----0-0-0-0-0-
Ab-0-0-0-0-0----0-0-0-0-0-
Db-0-0-0-0-0----0-0-0-0-0-
:rockon:

thurston
06-03-2007, 02:57 AM
i swear to god its

D|00000 ----------- ------000000
A|00000 ----------------000000
E|00000 WOOOOOO 000000